Just Like That

Ekolu

Submitted by: Ryan Rodriguez
G  C G C G C G C C D7 G C D7 G

INTRO

A -------0-0h2-0------------2-2-2-3-2---0-------5-2-2-2-3-5-5/7-5-3-2-3-5 
E -----3--------3-----3---------------3-------3--------------------------
C -2h4------------4-4---4-2---------------2-2----------------------------
G -----------------------------------------------------------------------

A -----0------5-------------------------------------------------
E ---2---3-5b---5b-3--------------------------------------------
C -2------------------------------------------------------------
G --------------------------------------------------------------


(Chorus)
C		D7	G
Just like that, just like that
C			D7		G
You are walking out of my room just like that
C		D7	G
Just like that, just like that
C			D7		G
You are walking out of my room just like that



C
I saw you packing up your things
Bm
All your diamonds and your rings
C			D7	G
So if you have to go, I won't say no

C
I saw you packing up your things
Bm
All your diamonds and your rings
C			D7	G
So if you have to go, I won't say no

Chorus



C			D7		G
You are walking out of my room just like that


Instrumental
C D7  G  C  D7   G

A -------0-0h2-0---------------2-2-2-3-5-5/7-5-3-2-3-5-5-3-2-2h3---0-2--- 
E -----3--------3-----3------------------------------------------3-------
C -2h4------------4-4---4-3-2--------------------------------------------
G -----------------------------------------------------------------------

A -5---5-7-7-7-5-3-3-2-0-2---5-------------------------------------------
E ---7---8-8-8-7-5-5-3-2-3-5---5b-3--------------------------------------
C -----------------------------------------------------------------------
G -----------------------------------------------------------------------


C		D7	Bm	G
But if you know that girl, I love her so
C		D7		G
But if you have to go, I won't say no
C				Bm
Oh I miss you Auwe, But you don't want to stay
C		D7		G
So if you have to go, I won't say no




C		D7	G
Just like that, just like that
C		D7		G
You are walking out of my room just like that
C		D7		G
You are walking out of my room just like that
C		D7		G
Just like that, just like that     (x2)

Just Like That, 5.0 out of 5 based on 3 ratings
Rate this Version
VN:F [1.9.22_1171]
Rating: 5.0/5 (3 votes cast)

Listen to this song

Leave a Reply

Log in