Kawika Ukulele Solo

Ka'au Crater Boys

Submitted by: ryan
Composed  By: The Sunday Manoa
Performed By: Troy Fernandez (Ka'au Crater Boys)
Submitted By: Teddy 


Chords: Dm C


 
A|--0--------------------------------7-7-7----------------------------------
E|--1------0-0h1-1-1-1-1d--0--0-1--3/8-8-8----------------------------------
C|--2-2-2-2---------------2--0-0-----7-7-7----------------------------------
G|--2-----------------------------------------------------------------------

A|--5-5-5-5-5-7-8/10-10-10-10-8-7-5-5h7d5-5-5h7d5-5-7---7-7-7---------------
E|------------------------------------------------------8---8---------------
C|------------------------------------------------------7---7---------------
G|--------------------------------------------------------------------------


A|--8/10-10-10-10-8-7-5-7-5-7-8-7-5-3-3p0-----------------------------------
E|---------------------------------------3-3p0-1p0--------------------------
C|---------------------------------------------------0-0h2-0----------------
G|--------------------------------------------------------0-----------------

A|--3/5-5-5-3-0-0h3d-----------------3/5-3-5/7-3-3-5/7-7-7-7-7/10-----------
E|-------------------3-1-0---0-1-3------------------------------------------
C|-------------------------2------------------------------------------------
G|--------------------------------------------------------------------------


A|--12-10-8-12-10-8-12-10-8-12-10-8---12-10-8-12-10-8-7-7-7-7-8-10/12-------
E|--------------------------------------------------------------------------
C|--------------------------------------------------------------------------
G|--------------------------------------------------------------------------

A|--12-10-8-10-12-10-8-10---12-12-12-12-10-10-8-8-7-7-5-5-3-0-3-------------
E|--------------------------------------------------------------------------
C|--------------------------------------------------------------------------
G|--------------------------------------------------------------------------

A|--5-5-5-3-0---------------------------------------------------------------
E|--5---------------3-1-0-------0-1-3-3-3-3/5-5-5-3-3/5-5-5-5-5-------------
C|--5---------------------2-0-2---------------------------------------------
G|--7---------0h2p0---------------------------------------------------------


A|--------------------------------------------------------------------------
E|--------------1-1h3--0-1-3p0-0-1-3-3/5-5-5-5-3-1-0--0----0----------------
C|--0-0-0-0-0h2-------------------------------------2---0-2-----------------
G|--------------------------------------------------------------------------


A|--5-5-5-5-7-8-8/10--10/15-15-15-15-15-15-12-12-12-10-10-----------10------
E|-------------------------------------------------------12-12-12-13--------
C|--------------------------------------------------------------------------
G|--------------------------------------------------------------------------


A|--10-10-12/15-15-15-12p10--10-10-10-12--8-10--{7-7h8d}7x---5h7-5----------
E|--------------------------------------------------------------------------
C|--------------------------------------------------------------------------
G|--------------------------------------------------------------------------



A|--5-5-10-8-7-5h7-5-5--10-8-7-5-5h7-5-5-5-5h7p5-5h7p5-5h7p5----------------
E|----------------------------------------------------------8-6-8-6-5-3-1---
C|--------------------------------------------------------------------------
G|--------------------------------------------------------------------------



A|--0-0-0-0-0-0-0-0-0-0-0-0-0-0-0-0-0-0-3-1-0-1-3-3-3-----------------------
E|--1-----------1---------------0-------------------------------------------
C|--2-----------2---------------0-------------------------------------------
G|--2-----------2---------------2-------------------------------------------



A|--3h5-5-5-5-7-7/8-8/10-10-8-7---5-7-7-7-7-7-8-8/10-10-10-10-10-10\3-------
E|--------------------------------------------------------------------------
C|--------------------------------------------------------------------------
G|--------------------------------------------------------------------------


A|--0--------------------0-------------------0-----------------------0...0--
E|--1------0-0h1-1-1-0---1------0-0h1-1-1-0--1--1-1-1-3-4/5-5-3-3-1--1...1--
C|--2-2-2-2-----------2--2-2-2-2-----------2-2--2-2-2-4-4/5-5-4-4-2--2...2--
G|--2--------------------2-------------------2-----------------------2...2--
		

Kawika Ukulele Solo, 3.8 out of 5 based on 6 ratings
Rate this Version
VN:F [1.9.22_1171]
Rating: 3.8/5 (6 votes cast)

Listen to this song

1 Comment

Leave a Reply

Log in