Sweet Like Sugar

Papa'a Bay Boys

Submitted by: Ryan Rodriguez
Chords:  F Dm Bb C7... 2/4...2 beats for each chord


a-3-0---------3-1 5-1---0-1-3s5-3 3-0------------- --------0-1-3-1-0-1---
e----3-1-3-3s5--- ---5-3--------- ---3-1-3-3s5-1-3 ---0-1-3---------3-0-1
c---------------- --------------- ---------------- 0h2-------------------
g---------------- --------------- ---------------- ----------------------

Every time I look at you, you turn the other way
I get no winks, no wave no time of day
But I see a sparkle in your eye you can't deny
And maybe you can give this big belly man a try

Chorus:
Cause baby I'm sweet like sugar
Tell me if you want a big lovah
Oh baby I'm sweet like sugar
Tell me if you wanna big lovah 
Tonight
Tonight

And when you're my lady, I will be true
From breakfast in bed, and hugs and kisses for you
And having you here baby ooh is such a treat
I get weak when you kiss my cheek cause girl you are so sweet

Chorus

a-3-0---------3-1 5-1---0-1-3s5-3 3-0------------- --------0-1-3-1-0-1---
e----3-1-3-3s5--- ---5-3--------- ---3-1-3-3s5-1-3 ---0-1-3---------3-0-1
c---------------- --------------- ---------------- 0h2-------------------
g---------------- --------------- ---------------- ----------------------

Bridge:
Beautiful you are oh
You're beautiful to me
Beautiful you are oh
You're beautiful to me

And when you're my lady, I will be true
From breakfast in bed, hugs and kisses for you
And having you here baby ooh is such a treat
I get weak when you kiss my cheek cause girl you are so sweet

Chorus

Listen to this song

Leave a Reply

Log in