Time To Get Over

Maoli

Submitted by: anaka
Intro  (2x): 

Chords - Bm, Amaj7
Ukulele Tab -
A|-9--------------------------------|-9--------------------------------|
E|---9-12----9----------------------|---9-12----9----------------------|
C|--------11---9-11-6-9-------------|--------11---9-11-6-9-------------|
G|----------------------------------|----------------------------------|
   
A|---------------------------------|--------------------------------|
E|---------------------------------|--------------------------------|
C|-8-----------------------11------|-8------------------------------|
G|---------------------------------|--------------------------------|


Verse 1:
             Bm
You say it’s over, you left me out there
   Amaj7
To die, oh yeah
                 Bm
I feel like it’s colder, although it’s warmer 
     Amaj7
Than July, baby


Chorus:
                 Bm
     Time to get over
                                   Amaj7
     No more you and I ‘cause it’s over
                     Bm
     Is there anyone out there
                                 Amaj7
     Who could be my wife and my lover?


Verse 2:
          Bm
Hiding my feelings is not so easy
                    Amaj7
When a man’s got to cry, oh yeah
                     Bm
‘Cause you’re like a flower and each passing hour 
                   Amaj7
Gets harder to say goodbye


Repeat Chorus:


Rap:
Well, well, listen, yo
            Bm
I said now, good, good love is what we need
I said now, good, good love is what we need
            Amaj7
Well in the morning, in the evening, in the afternoon
Fire blazing ‘pon me bed when I get next to you
            Bm
I said now, good, good love is what we need
I said now, good, good love is what we need
           Amaj7
So no more this and no more that, it’s the time I face the fact that
Baby I been missing you


Chorus (repeat and fade):

Time To Get Over, 4.8 out of 5 based on 5 ratings
Buy song on iTunes
Rate this Version
VN:F [1.9.22_1171]
Rating: 4.8/5 (5 votes cast)

Listen to this song

Leave a Reply

Log in