Tsunami

Chris Salvador

Submitted by: Jdawg_ukulele5
A|---3------5---7-2--3--5-0--2--3--3--2--0|                                 
E|---------5---5----3--3----1--1---1--1--1|
C|-----------------------------------------|
g|------4-----4-----2--2----0--0--0--0--0--|  X2

A|---0----7p0-------5p0------
E|---5------------5----------
C|---0-----------------------
G|---5--5-------5------------


A|--------7p0-------8p0---------7p0-------5p0-------7p0----0----------
E|-----5---------5-----------5----------5--------5---------------1----------
C|------------------------------------------------------------------0----------
G|---5---------5-----------5----------5--------5-----------------0----------


A|-----3p0--------2p0-------3p0-----0------5p0--------3p0--------5p0--|
E|-------------1----------1--------------3-------------3-----------3----------|
C|----------------------------------------2-------------------------------------|
G|---0-------0----------0---------------0---0-------0-----------0---------  -| X2


A|---0------10/12----10----7----7/10----7----5----5/7|
E|---0------10/12----10----7----7/10----7----5----5/7|
C|---9------------------------------------------------------|
g |---9---0----------0-----0-----0-------0----0-----0----|

A|--0-----3p0--------2p0-------3p0-----0------5p0--------3p0--------5p0--|
E|--1-------------1----------1-------------3-------------3-----------3----------|
C|--0---------------------------------------2-------------------------------------|
G|--0--0-------0----------0---------------0---0-------0-----------0---------  -| 

A|---0------10/12----10----12----12/15----12----10----10/12|
E|---0------10/12----10----12----12/15----12----10----10/12|
C|---9----------------------------------------------------------------|
G|---9---0----------0-----0------0----------0------0-----0--------|

A|---5-5|
E|---3-3|
C|---2-2|
G|---0-0 | X2

A|xxxxxxxxxxxxxxxxxxxxxxxxxxxxxxxxxx|
E|xxxxxxxxxxxxxxxxxxxxxxxxxxxxxxxxxx|
C|----4----9----7-----6-----11----9---7----6|
G|----2----7----5-----4------9-----7---5----4|

A|---0--2--3--5------5--3--2--0|
E|---1--1--1--1------7--7--7--7|
C|---0--0--0--0------7--7--7--7|
G|---0--0--0--0------0--0--0--0|  

A00000000000000000000000000000000||
E|00000000000000000000000000000000|
C|----4------9-----7------6-----11-----9-----14|
G|----2------7-----5------4------9------7-----12|

A|---0--2--3--5------5--3--2--0|
E|---1--1--1--1------7--7--7--7|
C|---0--0--0--0------7--7--7--7|
G|---0--0--0--0------0--0--0--0| 

A|---7--7---5--5---10--10--7--7---0h2h3-3-3---3--5--3--2
E|---5--5---5--5----5---5---5--5---1-1--1-1-1---0--0--0--0
C|---4--4---4--4----5---5---5--5---0-0--0-0-0---2--2--2--2
G|---0--0---0--0----5---5---5--5---0-0--0-0-0---1--1--1--1

A|---7--7---5--5---10--10--10--7--0h2h3---0h2h3----0h2h3--10-10--11
E|---7--5---5--5----5---5---5--5---1--1--1---1--1--1---1--1--1--8---8--8
C|---4--4---4--4----5---5---5--5---0--0--0---0--0--0---0--0--0--8---8--8
G|---0--0---0--0----0---0---0--0---0--0--0---0--0--0---0--0--0--7---7--7

A|---0----7p0-------5p0------
E|---5------------5----------
C|---0-----------------------
G|---5--5-------5------------


A|--------7p0-------8p0---------7p0-------5p0-------7p0----0----------
E|-----5---------5-----------5----------5--------5---------------1----------
C|------------------------------------------------------------------0----------
G|---5---------5-----------5----------5--------5-----------------0----------



A|-----3p0--------2p0-------3p0-----0------5p0--------3p0--------5p0--|
E|-------------1----------1--------------3-------------3-----------3----------|
C|----------------------------------------2-------------------------------------|
G|---0-------0----------0---------------0---0-------0-----------0---------  -| X2


A|---0------10/12----10----7----7/10----7----5----5/7|
E|---0------10/12----10----7----7/10----7----5----5/7|
C|---9------------------------------------------------------|
g |---9---0----------0-----0-----0-------0----0-----0----|

A|--0-----3p0--------2p0-------3p0-----0------5p0--------3p0--------5p0--|
E|--1-------------1----------1-------------3-------------3-----------3----------|
C|--0---------------------------------------2-------------------------------------|
G|--0--0-------0----------0---------------0---0-------0-----------0---------  -| 

A|---0------10/12----10----12----12/15----12----10----10/12|
E|---0------10/12----10----12----12/15----12----10----10/12|
C|---9----------------------------------------------------------------|
G|---9---0----------0-----0------0----------0------0-----0--------|

A|---5-5|
E|---3-3|
C|---2-2|
G|---0-0 | X2

A|xxxxxxxxxxxxxxxxxxxxxxxxxxxxxxxxxx|
E|xxxxxxxxxxxxxxxxxxxxxxxxxxxxxxxxxx|
C|----4----9----7-----6-----11----9---7----6|
G|----2----7----5-----4------9-----7---5----4|

A|---0--2--3--5------5--3--2--0|
E|---1--1--1--1------7--7--7--7|
C|---0--0--0--0------7--7--7--7|
G|---0--0--0--0------0--0--0--0|  

A00000000000000000000000000000000||
E|00000000000000000000000000000000|
C|----4------9-----7------6-----11-----9-----14|
G|----2------7-----5------4------9------7-----12|



A|---0--2--3--5------5--3--2--0|
E|---1--1--1--1------7--7--7--7|
C|---0--0--0--0------7--7--7--7|
G|---0--0--0--0------0--0--0--0| 

A|---7--7---5--5---10--10--7--7---0h2h3-3-3---3--5--3--2
E|---5--5---5--5----5---5---5--5---1-1--1-1-1---0--0--0--0
C|---4--4---4--4----5---5---5--5---0-0--0-0-0---2--2--2--2
G|---0--0---0--0----5---5---5--5---0-0--0-0-0---1--1--1--1

A|---7--7---5--5---10--10--10--7--0h2h3---0h2h3----0h2h3--10-10--11
E|---7--5---5--5----5---5---5--5---1--1--1---1--1--1---1--1--1--8---8--8
C|---4--4---4--4----5---5---5--5---0--0--0---0--0--0---0--0--0--8---8--8
G|---0--0---0--0----0---0---0--0---0--0--0---0--0--0---0--0--0--7---7--7

A|--------------------7-----|
E|---------5--------------7|
C|---0--4------------------|
G|-----------2/5--5---5---|x2 

A|--------------------8-----|
E|---------5--------------7|
C|---0--5------------------|
G|-----------2/5--5---5---|x2

A|--------------------7------------------------8------------------------10------------------------------8---|
E|---------5--------------7---------5--------------7---------5-----------------7------------5---------------7|
C|---0--4---------------------0--5--------------------0--7--------------------------0---5-------------------|
G|-----------2/5--5---5--------------2/5--5---5--------------2/5--5---5---------------------2/5--5---5---| X2

A|-----------------------7----7-----7----7----8----8----8----8----10-----10----10----10--|
E|----------5---------7-----7-----7----7----8----8----8----8----10----10---10---10------|
C|---0--4----------------------------------------------------------------------------------------|
G|------------2/5--5-----5-----5----5----7----7----7----7----9-----9-----9-----9----------|

A|--10--12--10---|   |12--15---14--10---15--14---10--12--7---10--|
E|--10--10--10---|   |12--12---12--12---12--12---12--12--8---10--|
C|---x---x---x------|   |9----9----9----9----9----9----9----9---5---7---|
G---9---9---9------|   |0----0----0----0----0----0----0----0---0---0---|X4




A|---0---3p0---2p0---3p0---5p0---3p0----2p0-----3p0-------------------
E|---1---1-----1-----1-----1-----1------1-------1---------------------
C|---0---0-----0-----0-----0-----0------0-------0---------------------
G|---0---0-----0-----0-----0-----0------0-------0---------------------

A|---x----x--x---x---x---x----x---x----x---x--------------------------
E|---3----3--3---3---3---3----3---3----3---3--------------------------
C|---2h4--4?-4---5---4---2h4--4---4----2---2--------------------------
G|---x----x--x---x---x---x----x---x----x---x--------------------------

A|---0---3p0---2p0---3p0---5p0---3p0----2p0-----3p0-------------------
E|---1---1-----1-----1-----1-----1------1-------1---------------------
C|---0---0-----0-----0-----0-----0------0-------0---------------------
G|---0---0-----0-----0-----0-----0------0-------0---------------------

A|---2--2--x--x---5---5---x--x---3--3----7----5-----2-----------------
E|---3--3--x--x---7---7---x--x---5--5----8----7-----3-----------------
C|---0--0--x--x---0---0---x--x---0--0----0----0-----0-----------------
G|---0--0--x--x---0---0---x--x---0--0----0----0-----0-----------------

A|---0---3p0---2p0---3p0---5p0---3p0----2p0-----3p0-------------------
E|---1---1-----1-----1-----1-----1------1-------1---------------------
C|---0---0-----0-----0-----0-----0------0-------0---------------------
G|---0---0-----0-----0-----0-----0------0-------0---------------------

A|---x----x--x---x---x---x----x---x----x---x--------------------------
E|---3----3--3---3---3---3----3---3----3---3--------------------------
C|---2h4--4?-4---5---4---2h4--4---4----2---2--------------------------
G|---x----x--x---x---x---x----x---x----x---x--------------------------




A|---0---3p0---2p0---3p0---5p0---3p0----2p0-----3p0-------------------
E|---1---1-----1-----1-----1-----1------1-------1---------------------
C|---0---0-----0-----0-----0-----0------0-------0---------------------
G|---0---0-----0-----0-----0-----0------0-------0---------------------

A|---2--2---5---5----3--3---7--7----5--5---8----8------7---7------12--12----14---14---15--15---17--17--19
E|---3--3---7---7----5--5---8--8----7--7---10---10-----8---8---13---13----13---13---13--13---13--13--13
C|---0--0---0---0----0--0---0--0----0--0---0----0------0---0------0-----0------0-----0----0----0---0-----0---0
G|---0--0---0---0----0--0---0--0----0--0---0----0------0---0------0----0------0-----0-----0---0----0----0---0

A|---0?7p0--------5p0----------7p0--------8p0--------7p0---------5p0--
E|---5--------5-------------5----------5-----------5-----------5------
C|---0----------------------------------------------------------------
G|---5------5------------5----------5-----------5------------5--------


A|---0?7p0--------5p0----------7p0--------8p0--------7p0---------5p0--
E|---5--------5-------------5----------5-----------5-----------5------
C|---0----------------------------------------------------------------
G|---5------5------------5----------5-----------5------------5--------


A|---0?7p0--------5p0----------7p0---------------------------
E|---5--------5-------------5--------------------------------
C----0---------------------------------(repeat 3 x)----------
G|---5------5------------5-----------------------------------
Then...
A|-------------0------------------------------------------------------
E|-------------5------------------------------------------------------
C|-------------0------------------------------------------------------
G|-------------5------------------------------------------------------

Listen to this song

1 Comment

Leave a Reply

Log in