Undercover lover

Three Plus

Submitted by: Kandam808
Intro:
A-2--3-2-------2-h3-3-5-0--2-3-2---5--0--h2-2----2--3-2------2-3h-3-5-0---
E-3------3-----------------3-----3------2--------3------3-----------------
C-4--------2---------------4---------------------4--------2---------------
G-------------------------------------------------------------------------


A-2--3-2----5---3---2----0------0---------
E-3------3------------------3-2---3-------
C-4----------2---2----2-------------------
G-----------------------------------------


G		     Am	       	        G		  Am
You standing there with your man but i see you looking at me
G	           Am                G                    Am
So I gave you a little smile and you smile on back at me
Bm7                       Am
And ohhh girl how can I get you all alone
Bm7	            Am                D7
And ohhh girl I wanna take you home


Chorus:
G				Am
Cuz I wanna be your undercover lover
G			Am
That no one else can discover
G		 Am    
Your undercover lover 
G       Am    G       Am
Tonight girl tonight girl


Verse2:
I seen you on wednesday night watching ho'onua give that feel good vibe
You're dancing there with your friend I'm so happy that I get to see you again
Your smile girl is making me go crazy
So please girl please come home with me

Chorus:
G				Am
Cuz I wanna be your undercover lover
G			Am
That no one else can discover
G		 Am    
Your undercover lover 
G       Am    G       Am
Tonight girl tonight girl

Instrumental
A----------------------------2-3-2--2-3-2-5-3-2-0h2-3-2-------5----3--------
E---3-3-3/5----5-7-3---------3-----3-------------------3---------------4-3-2-
C-2----------2-------0h1/2-0-4----------------------------1/2----2---2------
G----------------------------------------------------------------------------

Your smile girl is making me go crazy
So please girl please come home with me

Chorus:
G				Am
Cuz I wanna be your undercover lover
G			Am
That no one else can discover
G		 Am    
Your undercover lover 
G       Am    G       Am
Tonight girl tonight girl

Verse3:
At last we're together again can we friends with benefits
I call you up on your cell if you don't tell then I won't tell
I know girl that you got a man 
Keep it on the down low and stick to my plan

Buy song on iTunes

Listen to this song

Leave a Reply

Log in